gitársuli

Itt könyen megtanulhatsz akkordokat könyü dalokat akusztikus és elektromos gitáron. Remélem könyü lesz! SOK SIKERT MINDENKINEK !

 

gitar.jpegpengeto.jpeg

Ahoz hogy elkezdj gitározni szükséged lesz egy gitárra és egy pengetöre.


alapakkordok.jpg 

 

Ha már mennek az akkordok akkor jöhet az akkord váltás.:)                         

Igy külön féle variáciokat csinálhatsz.

Én nem járok gitártanárhoz "még" de amig nem találsz gitár tanárt,a youtuben vannak ojan videok ahol meglehet tanulni hangolni és a pengetés fajtáit is elsajátithatod.

Van aki könyü dalokat mutat ,tanit, amint rájövök hogy kel teszek videokat is!:)

 

 

A húrok el is vannak nevezve  

a felsö legvastagabb az az:E

az alata lévő az az:A

az alatt találhato a: D

ami  allat van a: G  

az alatt a:B vagy h

 és a legalso az megint :E

 

 

 A Harry Potter rajongoknak megmutatom hogy kell eljátszani a fő cim dalát sok sikert:)

 

E---0-3-2-0--7-5--2---0-3-2---3-2--2---

B-0-------------------------------0----3---0

G----------------------------------------------

D----------------------------------------------

A---------------------------------------------

E-----------------------------------------------

 

E---0-3-2-0--7-10-9-8--5-8-7-6--3-0
                                                                                                                                  B-0-----------------------------------3---

G------------------------------------------

D------------------------------------------

A-------------------------------------------

E-------------------------------------------

 

E-3-7--3-7--3-8-7-6--6-7-3-2-0-8-7

B------------------------------------------

G------------------------------------------

D------------------------------------------

A------------------------------------------

E-------------------------------------------

 

E-3-7--3-7--3-10-9-8---5--8-7-6---3-0

B---------------------------------------3----

G---------------------------------------------

D---------------------------------------------

A---------------------------------------------

E---------------------------------------------

 

A számok a bundok hejét jelölik ahol le kel fognod.





Weblap látogatottság számláló:

Mai: 2
Tegnapi: 3
Heti: 26
Havi: 157
Össz.: 14 887

Látogatottság növelés
Oldal: alapok
gitársuli - © 2008 - 2018 - gitarsuli.hupont.hu

A HuPont.hu egyszerűvé teszi a weblapkészítés minden lépését! Itt lehetséges a weblapkészítés!

Adatvédelmi Nyilatkozat

A HuPont.hu ingyen honlap látogatók száma jelen pillanatban:


▲   Itt: gitár akkordok - Vatera.hu
X

A honlap készítés ára 78 500 helyett MOST 0 (nulla) Ft! Tovább »